ISO-10303-21;
HEADER;
FILE_DESCRIPTION(('CATIA V5 STEP Exchange','CAx-IF Rec.Pracs.--- Model Styling and Organization---1.5--- 2016-08-15','CAx-IF Rec.Pracs.---Supplemental Geometry---1.0---2011-11-01','CAx-IF Rec.Pracs.--- Composite Materials ---3.4---2017-06-13','CAx-IF Rec.Pracs.---Tessellated 3D Geometry---1.0---2015-12-17'),'2;1');

FILE_NAME('Q:\\Rendering\\SY\\SY090410.stp','2025-03-26T09:27:00+00:00',('none'),('none'),'CATIA Version 5-6 Release 2020 SP2','CATIA V5 STEP AP242 v2','none');

FILE_SCHEMA(('AP242_MANAGED_MODEL_BASED_3D_ENGINEERING_MIM_LF  {1 0 10303 442 1 1 4}'));

ENDSEC;
DATA;
#5=PRODUCT('SY090410','SY090410','',(#2)) ;
#2=PRODUCT_CONTEXT(' ',#1,'mechanical') ;
#1=APPLICATION_CONTEXT('managed model based 3d engineering') ;
#10=PRODUCT_DEFINITION('',' ',#6,#3) ;
#3=PRODUCT_DEFINITION_CONTEXT('part definition',#1,' ') ;
#11=PRODUCT_DEFINITION_SHAPE(' ',' ',#10) ;
#267=MECHANICAL_DESIGN_GEOMETRIC_PRESENTATION_REPRESENTATION(' ',(#29),#16) ;
#7=PRODUCT_CATEGORY('part','specification') ;
#19=SHAPE_REPRESENTATION(' ',(#18),#16) ;
#17=CARTESIAN_POINT(' ',(0.,0.,0.)) ;
#31=CARTESIAN_POINT('Axis2P3D Location',(0.,45.,0.)) ;
#37=CARTESIAN_POINT('Control Point',(-10.,80.,-1.13242748512E-14)) ;
#38=CARTESIAN_POINT('Control Point',(-10.,80.0653923542,-0.0653923542259)) ;
#39=CARTESIAN_POINT('Control Point',(-9.99946548,80.1307407571,-0.130827552607)) ;
#40=CARTESIAN_POINT('Control Point',(-9.99834656891,80.2125414474,-0.212690856381)) ;
#41=CARTESIAN_POINT('Control Point',(-9.993298092,80.3926023614,-0.392785172257)) ;
#42=CARTESIAN_POINT('Control Point',(-9.9841950964,80.5726524815,-0.572731982762)) ;
#43=CARTESIAN_POINT('Control Point',(-9.97888440723,80.654442378,-0.654442379338)) ;
#44=CARTESIAN_POINT('Control Point',(-9.94108959351,81.1904413115,-1.19044130178)) ;
#45=CARTESIAN_POINT('Control Point',(-9.86718375215,81.7250183706,-1.72501844057)) ;
#46=CARTESIAN_POINT('Control Point',(-9.77425266475,82.192306605,-2.19230668332)) ;
#47=CARTESIAN_POINT('Control Point',(-9.35682176791,83.7877055001,-3.78770530914)) ;
#48=CARTESIAN_POINT('Control Point',(-8.59470104955,85.3266023072,-5.32660277313)) ;
#49=CARTESIAN_POINT('Control Point',(-7.87036192827,86.3720435124,-6.37204438709)) ;
#50=CARTESIAN_POINT('Control Point',(-6.42975745137,87.8642595417,-7.86425906489)) ;
#51=CARTESIAN_POINT('Control Point',(-4.47685766124,88.9958725715,-8.99587283139)) ;
#52=CARTESIAN_POINT('Control Point',(-3.72188564367,89.3393562464,-9.33935643703)) ;
#53=CARTESIAN_POINT('Control Point',(-2.17411853896,89.848665615,-9.84866544235)) ;
#54=CARTESIAN_POINT('Control Point',(-0.491138529095,90.03689404,-10.0368941964)) ;
#55=CARTESIAN_POINT('Control Point',(0.321023684553,90.0439198217,-10.0439196751)) ;
#56=CARTESIAN_POINT('Control Point',(1.97070858732,89.8877045352,-9.88770468986)) ;
#57=CARTESIAN_POINT('Control Point',(3.50009398395,89.4203737475,-9.42037358434)) ;
#58=CARTESIAN_POINT('Control Point',(4.23497752684,89.1085604695,-9.1085602272)) ;
#59=CARTESIAN_POINT('Control Point',(6.21593634386,88.0359039938,-8.035904462)) ;
#60=CARTESIAN_POINT('Control Point',(7.69719232685,86.5866325364,-6.586631632)) ;
#61=CARTESIAN_POINT('Control Point',(8.45927078177,85.5441793263,-5.54417884636)) ;
#62=CARTESIAN_POINT('Control Point',(9.25337362721,84.0327544147,-4.03275459964)) ;
#63=CARTESIAN_POINT('Control Point',(9.70822916449,82.4614068263,-2.46140675505)) ;
#64=CARTESIAN_POINT('Control Point',(9.80914453854,82.0208448593,-2.02084479618)) ;
#65=CARTESIAN_POINT('Control Point',(9.90761657268,81.4446818455,-1.44468186447)) ;
#66=CARTESIAN_POINT('Control Point',(9.96378264641,80.8661053061,-0.866105300403)) ;
#67=CARTESIAN_POINT('Control Point',(9.97192384634,80.7579465698,-0.75790498322)) ;
#68=CARTESIAN_POINT('Control Point',(9.98503442428,80.5672982163,-0.567339578654)) ;
#69=CARTESIAN_POINT('Control Point',(9.99358775359,80.3765173436,-0.376647941337)) ;
#70=CARTESIAN_POINT('Control Point',(9.99775063508,80.2682260882,-0.268354275584)) ;
#71=CARTESIAN_POINT('Control Point',(10.,80.1341451428,-0.134145142762)) ;
#72=CARTESIAN_POINT('Control Point',(10.,80.,-8.02580224502E-13)) ;
#73=CARTESIAN_POINT('Vertex',(10.,80.,7.1054273576E-15)) ;
#75=CARTESIAN_POINT('Vertex',(-10.,80.,0.)) ;
#78=CARTESIAN_POINT('Line Origine',(10.,45.,1.22464679915E-15)) ;
#82=CARTESIAN_POINT('Vertex',(10.,0.,1.22464679915E-15)) ;
#85=CARTESIAN_POINT('Axis2P3D Location',(0.,0.,0.)) ;
#89=CARTESIAN_POINT('Vertex',(-10.,0.,0.)) ;
#92=CARTESIAN_POINT('Line Origine',(-10.,45.,-2.44929359829E-15)) ;
#105=CARTESIAN_POINT('Control Point',(-10.,80.,-5.55111512313E-17)) ;
#106=CARTESIAN_POINT('Control Point',(-10.,79.9346096106,0.0653903893692)) ;
#107=CARTESIAN_POINT('Control Point',(-9.99946551212,79.8692631699,0.130823620319)) ;
#108=CARTESIAN_POINT('Control Point',(-9.99834666535,79.787461988,0.212687416039)) ;
#109=CARTESIAN_POINT('Control Point',(-9.99329813074,79.6073976381,0.392785173337)) ;
#110=CARTESIAN_POINT('Control Point',(-9.98419492249,79.4273440836,0.572735420737)) ;
#111=CARTESIAN_POINT('Control Point',(-9.97888413047,79.3455536971,0.654446304254)) ;
#112=CARTESIAN_POINT('Control Point',(-9.94108932292,78.8095567313,1.19044325905)) ;
#113=CARTESIAN_POINT('Control Point',(-9.86718375214,78.2749816293,1.72501844058)) ;
#114=CARTESIAN_POINT('Control Point',(-9.77425266475,77.8076933949,2.19230668336)) ;
#115=CARTESIAN_POINT('Control Point',(-9.35682176789,76.2122944998,3.7877053092)) ;
#116=CARTESIAN_POINT('Control Point',(-8.59470104951,74.6733976927,5.32660277319)) ;
#117=CARTESIAN_POINT('Control Point',(-7.87036192826,73.6279564876,6.3720443871)) ;
#118=CARTESIAN_POINT('Control Point',(-6.42975745137,72.1357404583,7.8642590649)) ;
#119=CARTESIAN_POINT('Control Point',(-4.47685766122,71.0041274285,8.9958728314)) ;
#120=CARTESIAN_POINT('Control Point',(-3.72188564363,70.6606437536,9.33935643704)) ;
#121=CARTESIAN_POINT('Control Point',(-2.17411853895,70.151334385,9.84866544235)) ;
#122=CARTESIAN_POINT('Control Point',(-0.491138529111,69.96310596,10.0368941964)) ;
#123=CARTESIAN_POINT('Control Point',(0.321023684625,69.9560801783,10.0439196751)) ;
#124=CARTESIAN_POINT('Control Point',(1.97070858735,70.1122954649,9.88770468985)) ;
#125=CARTESIAN_POINT('Control Point',(3.50009398393,70.5796262525,9.42037358435)) ;
#126=CARTESIAN_POINT('Control Point',(4.2349775269,70.8914395305,9.10856022717)) ;
#127=CARTESIAN_POINT('Control Point',(6.21593634385,71.9640960062,8.03590446199)) ;
#128=CARTESIAN_POINT('Control Point',(7.6971923268,73.4133674636,6.58663163204)) ;
#129=CARTESIAN_POINT('Control Point',(8.45927078182,74.4558206739,5.5441788463)) ;
#130=CARTESIAN_POINT('Control Point',(9.25337362724,75.9672455854,4.03275459954)) ;
#131=CARTESIAN_POINT('Control Point',(9.7082291645,77.5385931737,2.46140675501)) ;
#132=CARTESIAN_POINT('Control Point',(9.80914453855,77.9791551408,2.02084479614)) ;
#133=CARTESIAN_POINT('Control Point',(9.90761664941,78.5553186034,1.44468141555)) ;
#134=CARTESIAN_POINT('Control Point',(9.96378273393,79.1338955954,0.866104398856)) ;
#135=CARTESIAN_POINT('Control Point',(9.97192390074,79.242054219,0.757904192611)) ;
#136=CARTESIAN_POINT('Control Point',(9.98503441489,79.4327017831,0.567339577485)) ;
#137=CARTESIAN_POINT('Control Point',(9.99358771814,79.6234818661,0.376648731552)) ;
#138=CARTESIAN_POINT('Control Point',(9.99775061993,79.7317730087,0.268355179569)) ;
#139=CARTESIAN_POINT('Control Point',(10.,79.8658544055,0.134145594538)) ;
#140=CARTESIAN_POINT('Control Point',(10.,80.,1.27675647832E-15)) ;
#142=CARTESIAN_POINT('Axis2P3D Location',(0.,0.,0.)) ;
#154=CARTESIAN_POINT('Axis2P3D Location',(0.,0.,0.)) ;
#164=CARTESIAN_POINT('Axis2P3D Location',(0.,0.,120.)) ;
#169=CARTESIAN_POINT('Axis2P3D Location',(-3.39397883312E-15,80.,120.)) ;
#173=CARTESIAN_POINT('Vertex',(9.5,80.,120.)) ;
#175=CARTESIAN_POINT('Vertex',(-9.5,80.,120.)) ;
#178=CARTESIAN_POINT('Axis2P3D Location',(-3.39397883312E-15,80.,120.)) ;
#188=CARTESIAN_POINT('Axis2P3D Location',(0.,80.,54.2798233221)) ;
#193=CARTESIAN_POINT('Line Origine',(10.,80.,54.2798233221)) ;
#197=CARTESIAN_POINT('Vertex',(10.,80.,119.5)) ;
#200=CARTESIAN_POINT('Line Origine',(-10.,80.,54.2798233221)) ;
#204=CARTESIAN_POINT('Vertex',(-10.,80.,119.5)) ;
#207=CARTESIAN_POINT('Axis2P3D Location',(0.,80.,119.5)) ;
#219=CARTESIAN_POINT('Axis2P3D Location',(0.,80.,119.5)) ;
#231=CARTESIAN_POINT('Axis2P3D Location',(-3.10862446895E-15,80.,119.5)) ;
#236=CARTESIAN_POINT('Axis2P3D Location',(9.5,80.,119.5)) ;
#241=CARTESIAN_POINT('Axis2P3D Location',(-9.5,80.,119.5)) ;
#253=CARTESIAN_POINT('Axis2P3D Location',(-7.1054273576E-15,80.,119.5)) ;
#8=PRODUCT_RELATED_PRODUCT_CATEGORY('part',$,(#5)) ;
#15=UNCERTAINTY_MEASURE_WITH_UNIT(LENGTH_MEASURE(0.005),#12,'distance_accuracy_value','CONFUSED CURVE UNCERTAINTY') ;
#29=STYLED_ITEM(' ',(#28),#21) ;
#28=PRESENTATION_STYLE_ASSIGNMENT((#27)) ;
#27=SURFACE_STYLE_USAGE(.BOTH.,#26) ;
#26=SURFACE_SIDE_STYLE(' ',(#25)) ;
#25=SURFACE_STYLE_FILL_AREA(#24) ;
#24=FILL_AREA_STYLE(' ',(#23)) ;
#23=FILL_AREA_STYLE_COLOUR(' ',#22) ;
#80=VECTOR('Line Direction',#79,1.) ;
#94=VECTOR('Line Direction',#93,1.) ;
#195=VECTOR('Line Direction',#194,1.) ;
#202=VECTOR('Line Direction',#201,1.) ;
#32=DIRECTION('Axis2P3D Direction',(0.,1.,0.)) ;
#33=DIRECTION('Axis2P3D XDirection',(-1.,0.,0.)) ;
#79=DIRECTION('Vector Direction',(0.,1.,0.)) ;
#86=DIRECTION('Axis2P3D Direction',(0.,1.,0.)) ;
#93=DIRECTION('Vector Direction',(0.,1.,0.)) ;
#143=DIRECTION('Axis2P3D Direction',(0.,1.,0.)) ;
#155=DIRECTION('Axis2P3D Direction',(0.,1.,-0.)) ;
#156=DIRECTION('Axis2P3D XDirection',(-1.,0.,0.)) ;
#165=DIRECTION('Axis2P3D Direction',(0.,0.,1.)) ;
#166=DIRECTION('Axis2P3D XDirection',(1.,0.,0.)) ;
#170=DIRECTION('Axis2P3D Direction',(0.,0.,1.)) ;
#179=DIRECTION('Axis2P3D Direction',(0.,0.,1.)) ;
#189=DIRECTION('Axis2P3D Direction',(0.,0.,1.)) ;
#190=DIRECTION('Axis2P3D XDirection',(1.,0.,0.)) ;
#194=DIRECTION('Vector Direction',(0.,0.,1.)) ;
#201=DIRECTION('Vector Direction',(0.,0.,1.)) ;
#208=DIRECTION('Axis2P3D Direction',(0.,0.,1.)) ;
#220=DIRECTION('Axis2P3D Direction',(0.,0.,1.)) ;
#232=DIRECTION('Axis2P3D Direction',(-0.,0.,1.)) ;
#233=DIRECTION('Axis2P3D XDirection',(1.,1.42108547152E-15,0.)) ;
#237=DIRECTION('Axis2P3D Direction',(2.88657986403E-15,-1.,0.)) ;
#242=DIRECTION('Axis2P3D Direction',(1.49880108324E-15,1.,0.)) ;
#254=DIRECTION('Axis2P3D Direction',(0.,-0.,1.)) ;
#255=DIRECTION('Axis2P3D XDirection',(-1.,5.68434188608E-15,0.)) ;
#266=SHAPE_REPRESENTATION_RELATIONSHIP(' ',' ',#19,#265) ;
#18=AXIS2_PLACEMENT_3D(' ',#17,$,$) ;
#34=AXIS2_PLACEMENT_3D('Cylinder Axis2P3D',#31,#32,#33) ;
#87=AXIS2_PLACEMENT_3D('Circle Axis2P3D',#85,#86,$) ;
#144=AXIS2_PLACEMENT_3D('Circle Axis2P3D',#142,#143,$) ;
#157=AXIS2_PLACEMENT_3D('Plane Axis2P3D',#154,#155,#156) ;
#167=AXIS2_PLACEMENT_3D('Plane Axis2P3D',#164,#165,#166) ;
#171=AXIS2_PLACEMENT_3D('Circle Axis2P3D',#169,#170,$) ;
#180=AXIS2_PLACEMENT_3D('Circle Axis2P3D',#178,#179,$) ;
#191=AXIS2_PLACEMENT_3D('Cylinder Axis2P3D',#188,#189,#190) ;
#209=AXIS2_PLACEMENT_3D('Circle Axis2P3D',#207,#208,$) ;
#221=AXIS2_PLACEMENT_3D('Circle Axis2P3D',#219,#220,$) ;
#234=AXIS2_PLACEMENT_3D('Torus Axis2P3D',#231,#232,#233) ;
#238=AXIS2_PLACEMENT_3D('Circle Axis2P3D',#236,#237,$) ;
#243=AXIS2_PLACEMENT_3D('Circle Axis2P3D',#241,#242,$) ;
#256=AXIS2_PLACEMENT_3D('Torus Axis2P3D',#253,#254,#255) ;
#81=LINE('Line',#78,#80) ;
#95=LINE('Line',#92,#94) ;
#196=LINE('Line',#193,#195) ;
#203=LINE('Line',#200,#202) ;
#88=CIRCLE('generated circle',#87,10.) ;
#145=CIRCLE('generated circle',#144,10.) ;
#172=CIRCLE('generated circle',#171,9.5) ;
#181=CIRCLE('generated circle',#180,9.5) ;
#210=CIRCLE('generated circle',#209,10.) ;
#222=CIRCLE('generated circle',#221,10.) ;
#239=CIRCLE('generated circle',#238,0.5) ;
#244=CIRCLE('generated circle',#243,0.5) ;
#158=PLANE('',#157) ;
#168=PLANE('',#167) ;
#35=CYLINDRICAL_SURFACE('generated cylinder',#34,10.) ;
#192=CYLINDRICAL_SURFACE('generated cylinder',#191,10.) ;
#235=TOROIDAL_SURFACE('homeo Torus',#234,9.5,0.5) ;
#257=TOROIDAL_SURFACE('homeo Torus',#256,9.5,0.5) ;
#77=EDGE_CURVE('',#74,#76,#36,.F.) ;
#84=EDGE_CURVE('',#83,#74,#81,.T.) ;
#91=EDGE_CURVE('',#83,#90,#88,.T.) ;
#96=EDGE_CURVE('',#90,#76,#95,.T.) ;
#141=EDGE_CURVE('',#76,#74,#104,.T.) ;
#146=EDGE_CURVE('',#90,#83,#145,.T.) ;
#177=EDGE_CURVE('',#174,#176,#172,.T.) ;
#182=EDGE_CURVE('',#176,#174,#181,.T.) ;
#199=EDGE_CURVE('',#198,#74,#196,.F.) ;
#206=EDGE_CURVE('',#205,#76,#203,.F.) ;
#211=EDGE_CURVE('',#198,#205,#210,.T.) ;
#223=EDGE_CURVE('',#205,#198,#222,.T.) ;
#240=EDGE_CURVE('',#174,#198,#239,.F.) ;
#245=EDGE_CURVE('',#176,#205,#244,.F.) ;
#30=CLOSED_SHELL('Closed Shell',(#103,#153,#163,#187,#218,#230,#252,#264)) ;
#98=ORIENTED_EDGE('',*,*,#77,.F.) ;
#99=ORIENTED_EDGE('',*,*,#84,.F.) ;
#100=ORIENTED_EDGE('',*,*,#91,.T.) ;
#101=ORIENTED_EDGE('',*,*,#96,.T.) ;
#148=ORIENTED_EDGE('',*,*,#141,.F.) ;
#149=ORIENTED_EDGE('',*,*,#96,.F.) ;
#150=ORIENTED_EDGE('',*,*,#146,.T.) ;
#151=ORIENTED_EDGE('',*,*,#84,.T.) ;
#160=ORIENTED_EDGE('',*,*,#91,.F.) ;
#161=ORIENTED_EDGE('',*,*,#146,.F.) ;
#184=ORIENTED_EDGE('',*,*,#177,.T.) ;
#185=ORIENTED_EDGE('',*,*,#182,.T.) ;
#213=ORIENTED_EDGE('',*,*,#199,.T.) ;
#214=ORIENTED_EDGE('',*,*,#77,.T.) ;
#215=ORIENTED_EDGE('',*,*,#206,.F.) ;
#216=ORIENTED_EDGE('',*,*,#211,.F.) ;
#225=ORIENTED_EDGE('',*,*,#206,.T.) ;
#226=ORIENTED_EDGE('',*,*,#141,.T.) ;
#227=ORIENTED_EDGE('',*,*,#199,.F.) ;
#228=ORIENTED_EDGE('',*,*,#223,.F.) ;
#247=ORIENTED_EDGE('',*,*,#240,.T.) ;
#248=ORIENTED_EDGE('',*,*,#211,.T.) ;
#249=ORIENTED_EDGE('',*,*,#245,.F.) ;
#250=ORIENTED_EDGE('',*,*,#177,.F.) ;
#259=ORIENTED_EDGE('',*,*,#245,.T.) ;
#260=ORIENTED_EDGE('',*,*,#223,.T.) ;
#261=ORIENTED_EDGE('',*,*,#240,.F.) ;
#262=ORIENTED_EDGE('',*,*,#182,.F.) ;
#97=EDGE_LOOP('',(#98,#99,#100,#101)) ;
#147=EDGE_LOOP('',(#148,#149,#150,#151)) ;
#159=EDGE_LOOP('',(#160,#161)) ;
#183=EDGE_LOOP('',(#184,#185)) ;
#212=EDGE_LOOP('',(#213,#214,#215,#216)) ;
#224=EDGE_LOOP('',(#225,#226,#227,#228)) ;
#246=EDGE_LOOP('',(#247,#248,#249,#250)) ;
#258=EDGE_LOOP('',(#259,#260,#261,#262)) ;
#21=MANIFOLD_SOLID_BREP('PartBody',#30) ;
#74=VERTEX_POINT('',#73) ;
#76=VERTEX_POINT('',#75) ;
#83=VERTEX_POINT('',#82) ;
#90=VERTEX_POINT('',#89) ;
#174=VERTEX_POINT('',#173) ;
#176=VERTEX_POINT('',#175) ;
#198=VERTEX_POINT('',#197) ;
#205=VERTEX_POINT('',#204) ;
#265=ADVANCED_BREP_SHAPE_REPRESENTATION('NONE',(#21),#16) ;
#103=ADVANCED_FACE('PartBody',(#102),#35,.T.) ;
#153=ADVANCED_FACE('PartBody',(#152),#35,.T.) ;
#163=ADVANCED_FACE('PartBody',(#162),#158,.F.) ;
#187=ADVANCED_FACE('PartBody',(#186),#168,.T.) ;
#218=ADVANCED_FACE('PartBody',(#217),#192,.T.) ;
#230=ADVANCED_FACE('PartBody',(#229),#192,.T.) ;
#252=ADVANCED_FACE('PartBody',(#251),#235,.T.) ;
#264=ADVANCED_FACE('PartBody',(#263),#257,.T.) ;
#4=APPLICATION_PROTOCOL_DEFINITION('international standard','ap242_managed_model_based_3d_engineering',2014,#1) ;
#36=B_SPLINE_CURVE_WITH_KNOTS('',5,(#37,#38,#39,#40,#41,#42,#43,#44,#45,#46,#47,#48,#49,#50,#51,#52,#53,#54,#55,#56,#57,#58,#59,#60,#61,#62,#63,#64,#65,#66,#67,#68,#69,#70,#71,#72),.UNSPECIFIED.,.F.,.U.,(6,3,3,3,3,3,3,3,3,3,3,6),(1.12115788116E-14,0.653923542259,1.30784708452,6.02048076171,17.5162696701,23.7826358647,29.4589958105,35.4466614248,47.0136602645,51.4711737531,52.8126251807,54.1540766083),.UNSPECIFIED.) ;
#104=B_SPLINE_CURVE_WITH_KNOTS('',5,(#105,#106,#107,#108,#109,#110,#111,#112,#113,#114,#115,#116,#117,#118,#119,#120,#121,#122,#123,#124,#125,#126,#127,#128,#129,#130,#131,#132,#133,#134,#135,#136,#137,#138,#139,#140),.UNSPECIFIED.,.F.,.U.,(6,3,3,3,3,3,3,3,3,3,3,6),(0.,0.653903893692,1.30780778738,6.02044146466,17.5162303732,23.7825965677,29.4589565133,35.4466221275,47.0136209668,51.4711344554,52.8125904008,54.1540463462),.UNSPECIFIED.) ;
#22=COLOUR_RGB('Colour',0.823529411765,0.823529411765,1.) ;
#102=FACE_OUTER_BOUND('',#97,.T.) ;
#152=FACE_OUTER_BOUND('',#147,.T.) ;
#162=FACE_OUTER_BOUND('',#159,.T.) ;
#186=FACE_OUTER_BOUND('',#183,.T.) ;
#217=FACE_OUTER_BOUND('',#212,.T.) ;
#229=FACE_OUTER_BOUND('',#224,.T.) ;
#251=FACE_OUTER_BOUND('',#246,.T.) ;
#263=FACE_OUTER_BOUND('',#258,.T.) ;
#9=PRODUCT_CATEGORY_RELATIONSHIP(' ',' ',#7,#8) ;
#6=PRODUCT_DEFINITION_FORMATION_WITH_SPECIFIED_SOURCE('00',' ',#5,.NOT_KNOWN.) ;
#20=SHAPE_DEFINITION_REPRESENTATION(#11,#19) ;
#12=(LENGTH_UNIT()NAMED_UNIT(*)SI_UNIT(.MILLI.,.METRE.)) ;
#13=(NAMED_UNIT(*)PLANE_ANGLE_UNIT()SI_UNIT($,.RADIAN.)) ;
#14=(NAMED_UNIT(*)SI_UNIT($,.STERADIAN.)SOLID_ANGLE_UNIT()) ;
#16=(GEOMETRIC_REPRESENTATION_CONTEXT(3)GLOBAL_UNCERTAINTY_ASSIGNED_CONTEXT((#15))GLOBAL_UNIT_ASSIGNED_CONTEXT((#12,#13,#14))REPRESENTATION_CONTEXT(' ',' ')) ;
ENDSEC;
END-ISO-10303-21;
